  0
SECTION
  2
HEADER
  9
$ACADVER
  1
AC1015
  9
$ACADMAINTVER
 70
     6
  9
$DWGCODEPAGE
  3
ANSI_1252
  9
$INSBASE
 10
0.0
 20
0.0
 30
0.0
  9
$EXTMIN
 10
-23.0
 20
-11.8458675452
 30
0.0
  9
$EXTMAX
 10
23.0
 20
16.1317040487
 30
0.0
  9
$LIMMIN
 10
0.0
 20
0.0
  9
$LIMMAX
 10
420.0
 20
297.0
  9
$ORTHOMODE
 70
     0
  9
$REGENMODE
 70
     1
  9
$FILLMODE
 70
     1
  9
$QTEXTMODE
 70
     0
  9
$MIRRTEXT
 70
     1
  9
$LTSCALE
 40
1.0
  9
$ATTMODE
 70
     1
  9
$TEXTSIZE
 40
3.5
  9
$TRACEWID
 40
1.0
  9
$TEXTSTYLE
  7
Standard
  9
$CLAYER
  8
0
  9
$CELTYPE
  6
ByLayer
  9
$CECOLOR
 62
   256
  9
$CELTSCALE
 40
1.0
  9
$DISPSILH
 70
     0
  9
$DIMSCALE
 40
1.0
  9
$DIMASZ
 40
3.302
  9
$DIMEXO
 40
1.0
  9
$DIMDLI
 40
3.75
  9
$DIMRND
 40
0.0
  9
$DIMDLE
 40
0.0
  9
$DIMEXE
 40
1.0
  9
$DIMTP
 40
0.0
  9
$DIMTM
 40
0.0
  9
$DIMTXT
 40
3.5
  9
$DIMCEN
 40
2.5
  9
$DIMTSZ
 40
0.0
  9
$DIMTOL
 70
     0
  9
$DIMLIM
 70
     0
  9
$DIMTIH
 70
     1
  9
$DIMTOH
 70
     1
  9
$DIMSE1
 70
     0
  9
$DIMSE2
 70
     0
  9
$DIMTAD
 70
     1
  9
$DIMZIN
 70
     0
  9
$DIMBLK
  1

  9
$DIMASO
 70
     1
  9
$DIMSHO
 70
     1
  9
$DIMPOST
  1

  9
$DIMAPOST
  1

  9
$DIMALT
 70
     0
  9
$DIMALTD
 70
     3
  9
$DIMALTF
 40
0.0393700787
  9
$DIMLFAC
 40
1.0
  9
$DIMTOFL
 70
     1
  9
$DIMTVP
 40
0.0
  9
$DIMTIX
 70
     0
  9
$DIMSOXD
 70
     0
  9
$DIMSAH
 70
     0
  9
$DIMBLK1
  1

  9
$DIMBLK2
  1

  9
$DIMSTYLE
  2
ISO-25
  9
$DIMCLRD
 70
     0
  9
$DIMCLRE
 70
     0
  9
$DIMCLRT
 70
     0
  9
$DIMTFAC
 40
1.0
  9
$DIMGAP
 40
1.524
  9
$DIMJUST
 70
     0
  9
$DIMSD1
 70
     0
  9
$DIMSD2
 70
     0
  9
$DIMTOLJ
 70
     0
  9
$DIMTZIN
 70
     0
  9
$DIMALTZ
 70
     0
  9
$DIMALTTZ
 70
     0
  9
$DIMUPT
 70
     0
  9
$DIMDEC
 70
     2
  9
$DIMTDEC
 70
     2
  9
$DIMALTU
 70
     2
  9
$DIMALTTD
 70
     3
  9
$DIMTXSTY
  7
Standard
  9
$DIMAUNIT
 70
     0
  9
$DIMADEC
 70
     2
  9
$DIMALTRND
 40
0.0
  9
$DIMAZIN
 70
     0
  9
$DIMDSEP
 70
    44
  9
$DIMATFIT
 70
     3
  9
$DIMFRAC
 70
     0
  9
$DIMLDRBLK
  1

  9
$DIMLUNIT
 70
     2
  9
$DIMLWD
 70
    -2
  9
$DIMLWE
 70
    -2
  9
$DIMTMOVE
 70
     0
  9
$LUNITS
 70
     2
  9
$LUPREC
 70
     2
  9
$SKETCHINC
 40
1.0
  9
$FILLETRAD
 40
10.0
  9
$AUNITS
 70
     0
  9
$AUPREC
 70
     2
  9
$MENU
  1
.
  9
$ELEVATION
 40
0.0
  9
$PELEVATION
 40
0.0
  9
$THICKNESS
 40
0.0
  9
$LIMCHECK
 70
     0
  9
$CHAMFERA
 40
0.0
  9
$CHAMFERB
 40
0.0
  9
$CHAMFERC
 40
0.0
  9
$CHAMFERD
 40
0.0
  9
$SKPOLY
 70
     0
  9
$TDCREATE
 40
2457496.958023125
  9
$TDUCREATE
 40
2457496.874689792
  9
$TDUPDATE
 40
2457496.958078553
  9
$TDUUPDATE
 40
2457496.87474522
  9
$TDINDWG
 40
0.0000000116
  9
$TDUSRTIMER
 40
0.0000000116
  9
$USRTIMER
 70
     1
  9
$ANGBASE
 50
0.0
  9
$ANGDIR
 70
     0
  9
$PDMODE
 70
     0
  9
$PDSIZE
 40
-1.0
  9
$PLINEWID
 40
0.0
  9
$SPLFRAME
 70
     0
  9
$SPLINETYPE
 70
     6
  9
$SPLINESEGS
 70
     8
  9
$HANDSEED
  5
88
  9
$SURFTAB1
 70
     6
  9
$SURFTAB2
 70
     6
  9
$SURFTYPE
 70
     6
  9
$SURFU
 70
     6
  9
$SURFV
 70
     6
  9
$UCSBASE
  2

  9
$UCSNAME
  2

  9
$UCSORG
 10
0.0
 20
0.0
 30
0.0
  9
$UCSXDIR
 10
1.0
 20
0.0
 30
0.0
  9
$UCSYDIR
 10
0.0
 20
1.0
 30
0.0
  9
$UCSORTHOREF
  2

  9
$UCSORTHOVIEW
 70
     0
  9
$UCSORGTOP
 10
0.0
 20
0.0
 30
0.0
  9
$UCSORGBOTTOM
 10
0.0
 20
0.0
 30
0.0
  9
$UCSORGLEFT
 10
0.0
 20
0.0
 30
0.0
  9
$UCSORGRIGHT
 10
0.0
 20
0.0
 30
0.0
  9
$UCSORGFRONT
 10
0.0
 20
0.0
 30
0.0
  9
$UCSORGBACK
 10
0.0
 20
0.0
 30
0.0
  9
$PUCSBASE
  2

  9
$PUCSNAME
  2

  9
$PUCSORG
 10
0.0
 20
0.0
 30
0.0
  9
$PUCSXDIR
 10
1.0
 20
0.0
 30
0.0
  9
$PUCSYDIR
 10
0.0
 20
1.0
 30
0.0
  9
$PUCSORTHOREF
  2

  9
$PUCSORTHOVIEW
 70
     0
  9
$PUCSORGTOP
 10
0.0
 20
0.0
 30
0.0
  9
$PUCSORGBOTTOM
 10
0.0
 20
0.0
 30
0.0
  9
$PUCSORGLEFT
 10
0.0
 20
0.0
 30
0.0
  9
$PUCSORGRIGHT
 10
0.0
 20
0.0
 30
0.0
  9
$PUCSORGFRONT
 10
0.0
 20
0.0
 30
0.0
  9
$PUCSORGBACK
 10
0.0
 20
0.0
 30
0.0
  9
$USERI1
 70
     0
  9
$USERI2
 70
     0
  9
$USERI3
 70
     0
  9
$USERI4
 70
     0
  9
$USERI5
 70
     0
  9
$USERR1
 40
0.0
  9
$USERR2
 40
0.0
  9
$USERR3
 40
0.0
  9
$USERR4
 40
0.0
  9
$USERR5
 40
0.0
  9
$WORLDVIEW
 70
     1
  9
$SHADEDGE
 70
     3
  9
$SHADEDIF
 70
    70
  9
$TILEMODE
 70
     1
  9
$MAXACTVP
 70
    64
  9
$PINSBASE
 10
0.0
 20
0.0
 30
0.0
  9
$PLIMCHECK
 70
     0
  9
$PEXTMIN
 10
-23.0
 20
-23.0
 30
0.0
  9
$PEXTMAX
 10
23.0
 20
23.0
 30
0.0
  9
$PLIMMIN
 10
-27.7179487179
 20
-24.7692307692
  9
$PLIMMAX
 10
42.3435897436
 20
24.7692307692
  9
$UNITMODE
 70
     0
  9
$VISRETAIN
 70
     1
  9
$PLINEGEN
 70
     0
  9
$PSLTSCALE
 70
     1
  9
$TREEDEPTH
 70
  3020
  9
$CMLSTYLE
  2
Standard
  9
$CMLJUST
 70
     0
  9
$CMLSCALE
 40
20.0
  9
$PROXYGRAPHICS
 70
     1
  9
$MEASUREMENT
 70
     1
  9
$CELWEIGHT
370
    -1
  9
$ENDCAPS
280
     0
  9
$JOINSTYLE
280
     0
  9
$LWDISPLAY
290
     1
  9
$INSUNITS
 70
     4
  9
$HYPERLINKBASE
  1

  9
$STYLESHEET
  1

  9
$XEDIT
290
     1
  9
$CEPSNTYPE
380
     0
  9
$PSTYLEMODE
290
     1
  9
$FINGERPRINTGUID
  2
{993D7204-589C-4D54-A6B4-2648956DA679}
  9
$VERSIONGUID
  2
{FAEB1C32-E019-11D5-929B-00C0DF256EC4}
  9
$EXTNAMES
290
     1
  9
$PSVPSCALE
 40
0.0
  9
$OLESTARTUP
290
     0
  0
ENDSEC
  0
SECTION
  2
CLASSES
  0
CLASS
  1
ACDBDICTIONARYWDFLT
  2
AcDbDictionaryWithDefault
  3
ObjectDBX Classes
 90
        0
280
     0
281
     0
  0
CLASS
  1
VISUALSTYLE
  2
AcDbVisualStyle
  3
ObjectDBX Classes
 90
     4095
280
     0
281
     0
  0
CLASS
  1
MATERIAL
  2
AcDbMaterial
  3
ObjectDBX Classes
 90
     1153
280
     0
281
     0
  0
CLASS
  1
SCALE
  2
AcDbScale
  3
ObjectDBX Classes
 90
     1153
280
     0
281
     0
  0
CLASS
  1
SUN
  2
AcDbSun
  3
SCENEOE
 90
     1153
280
     0
281
     0
  0
CLASS
  1
ACDBPLACEHOLDER
  2
AcDbPlaceHolder
  3
ObjectDBX Classes
 90
        0
280
     0
281
     0
  0
CLASS
  1
LAYOUT
  2
AcDbLayout
  3
ObjectDBX Classes
 90
        0
280
     0
281
     0
  0
ENDSEC
  0
SECTION
  2
TABLES
  0
TABLE
  2
VPORT
  5
8
330
0
100
AcDbSymbolTable
 70
     1
  0
VPORT
  5
29
330
8
100
AcDbSymbolTableRecord
100
AcDbViewportTableRecord
  2
*Active
 70
     0
 10
0.0
 20
0.0
 11
1.0
 21
1.0
 12
0.0
 22
2.1429182518
 13
0.0
 23
0.0
 14
10.0
 24
10.0
 15
10.0
 25
10.0
 16
0.0
 26
0.0
 36
1.0
 17
0.0
 27
0.0
 37
0.0
 40
28.5371230259
 41
1.6441741502
 42
50.0
 43
0.0
 44
0.0
 50
0.0
 51
0.0
 71
     0
 72
   100
 73
     1
 74
     3
 75
     0
 76
     0
 77
     0
 78
     0
281
     0
 65
     1
110
0.0
120
0.0
130
0.0
111
1.0
121
0.0
131
0.0
112
0.0
122
1.0
132
0.0
 79
     0
146
0.0
  0
ENDTAB
  0
TABLE
  2
LTYPE
  5
5
330
0
100
AcDbSymbolTable
 70
     6
  0
LTYPE
  5
14
330
5
100
AcDbSymbolTableRecord
100
AcDbLinetypeTableRecord
  2
ByBlock
 70
     0
  3

 72
    65
 73
     0
 40
0.0
  0
LTYPE
  5
15
330
5
100
AcDbSymbolTableRecord
100
AcDbLinetypeTableRecord
  2
ByLayer
 70
     0
  3

 72
    65
 73
     0
 40
0.0
  0
LTYPE
  5
16
330
5
100
AcDbSymbolTableRecord
100
AcDbLinetypeTableRecord
  2
Continuous
 70
     0
  3
Solid line
 72
    65
 73
     0
 40
0.0
  0
LTYPE
  5
6A
330
5
100
AcDbSymbolTableRecord
100
AcDbLinetypeTableRecord
  2
HIDDEN
 70
     0
  3
Hidden __ __ __ __ __ __ __ __ __ __ __ __ __ __
 72
    65
 73
     2
 40
1.905
 49
1.27
 74
     0
 49
-0.635
 74
     0
  0
LTYPE
  5
6B
330
5
100
AcDbSymbolTableRecord
100
AcDbLinetypeTableRecord
  2
PHANTOM
 70
     0
  3
Phantom ______  __  __  ______  __  __  ______
 72
    65
 73
     6
 40
12.7
 49
6.35
 74
     0
 49
-1.27
 74
     0
 49
1.27
 74
     0
 49
-1.27
 74
     0
 49
1.27
 74
     0
 49
-1.27
 74
     0
  0
LTYPE
  5
6C
330
5
100
AcDbSymbolTableRecord
100
AcDbLinetypeTableRecord
  2
CENTER
 70
     0
  3
Center ____ _ ____ _ ____ _ ____ _ ____ _ ____
 72
    65
 73
     4
 40
10.16
 49
6.35
 74
     0
 49
-1.27
 74
     0
 49
1.27
 74
     0
 49
-1.27
 74
     0
  0
LTYPE
  5
6D
330
5
100
AcDbSymbolTableRecord
100
AcDbLinetypeTableRecord
  2
CENTERX2
 70
     0
  3
Center (2x) ________  __  ________  __  _____
 72
    65
 73
     4
 40
20.32
 49
12.7
 74
     0
 49
-2.54
 74
     0
 49
2.54
 74
     0
 49
-2.54
 74
     0
  0
LTYPE
  5
6E
330
5
100
AcDbSymbolTableRecord
100
AcDbLinetypeTableRecord
  2
DOT2
 70
     0
  3
Dot (.5x) ........................................
 72
    65
 73
     2
 40
0.635
 49
0.0
 74
     0
 49
-0.635
 74
     0
  0
ENDTAB
  0
TABLE
  2
LAYER
  5
2
330
0
100
AcDbSymbolTable
 70
     1
  0
LAYER
  5
10
330
2
100
AcDbSymbolTableRecord
100
AcDbLayerTableRecord
  2
0
 70
     0
 62
     7
  6
Continuous
370
    -3
390
F
  0
ENDTAB
  0
TABLE
  2
STYLE
  5
3
330
0
100
AcDbSymbolTable
 70
     1
  0
STYLE
  5
11
330
3
100
AcDbSymbolTableRecord
100
AcDbTextStyleTableRecord
  2
Standard
 70
     0
 40
0.0
 41
1.0
 50
0.0
 71
     0
 42
3.5
  3
txt
  4

  0
ENDTAB
  0
TABLE
  2
VIEW
  5
6
330
0
100
AcDbSymbolTable
 70
     0
  0
ENDTAB
  0
TABLE
  2
UCS
  5
7
330
0
100
AcDbSymbolTable
 70
     0
  0
ENDTAB
  0
TABLE
  2
APPID
  5
9
330
0
100
AcDbSymbolTable
 70
     1
  0
APPID
  5
12
330
9
100
AcDbSymbolTableRecord
100
AcDbRegAppTableRecord
  2
ACAD
 70
     0
  0
ENDTAB
  0
TABLE
  2
DIMSTYLE
  5
A
330
0
100
AcDbSymbolTable
 70
     1
100
AcDbDimStyleTable
  0
DIMSTYLE
105
27
330
A
100
AcDbSymbolTableRecord
100
AcDbDimStyleTableRecord
  2
ISO-25
 70
     0
 41
2.5
 42
0.625
 43
3.75
 44
1.25
 73
     0
 74
     0
 77
     1
 78
     8
140
2.5
141
2.5
143
0.0393700787
147
0.625
171
     3
172
     1
178
     0
271
     2
272
     2
274
     3
278
    44
283
     0
284
     8
340
11
  0
ENDTAB
  0
TABLE
  2
BLOCK_RECORD
  5
1
330
0
100
AcDbSymbolTable
 70
     1
  0
BLOCK_RECORD
  5
1F
330
1
100
AcDbSymbolTableRecord
100
AcDbBlockTableRecord
  2
*Model_Space
340
22
  0
BLOCK_RECORD
  5
1B
330
1
100
AcDbSymbolTableRecord
100
AcDbBlockTableRecord
  2
*Paper_Space
340
1E
  0
BLOCK_RECORD
  5
23
330
1
100
AcDbSymbolTableRecord
100
AcDbBlockTableRecord
  2
*Paper_Space0
340
26
  0
ENDTAB
  0
ENDSEC
  0
SECTION
  2
BLOCKS
  0
BLOCK
  5
20
330
1F
100
AcDbEntity
  8
0
100
AcDbBlockBegin
  2
*Model_Space
 70
     0
 10
0.0
 20
0.0
 30
0.0
  3
*Model_Space
  1
*Model_Space
  0
ENDBLK
  5
21
330
1F
100
AcDbEntity
  8
0
100
AcDbBlockEnd
  0
BLOCK
  5
1C
330
1B
100
AcDbEntity
 67
     1
  8
0
100
AcDbBlockBegin
  2
*Paper_Space
 70
     0
 10
0.0
 20
0.0
 30
0.0
  3
*Paper_Space
  1
*Paper_Space
  0
ENDBLK
  5
1D
330
1B
100
AcDbEntity
 67
     1
  8
0
100
AcDbBlockEnd
  0
BLOCK
  5
24
330
23
100
AcDbEntity
  8
0
100
AcDbBlockBegin
  2
*Paper_Space0
 70
     0
 10
0.0
 20
0.0
 30
0.0
  3
*Paper_Space0
  1
*Paper_Space0
  0
LINE
  5
80
330
23
100
AcDbEntity
  8
0
  6
Continuous
 62
     7
370
    15
100
AcDbLine
 10
23.0
 20
0.0
 30
0.0
 11
23.0
 21
5.0
 31
0.0
  0
LINE
  5
81
330
23
100
AcDbEntity
  8
0
  6
Continuous
 62
     7
370
    15
100
AcDbLine
 10
-23.0
 20
5.0
 30
0.0
 11
-23.0
 21
0.0
 31
0.0
  0
LINE
  5
82
330
23
100
AcDbEntity
  8
0
  6
Continuous
 62
     7
370
    15
100
AcDbLine
 10
-23.0
 20
0.0
 30
0.0
 11
23.0
 21
0.0
 31
0.0
  0
LINE
  5
83
330
23
100
AcDbEntity
  8
0
  6
Continuous
 62
     7
370
    15
100
AcDbLine
 10
-23.0
 20
5.0
 30
0.0
 11
23.0
 21
5.0
 31
0.0
  0
VIEWPORT
  5
86
330
23
100
AcDbEntity
  8
0
100
AcDbViewport
 10
0.0
 20
0.0
 30
0.0
 40
205.6
 41
156.0
 68
     1
 69
     1
 12
0.0
 22
2.1429182518
 13
0.0
 23
0.0
 14
10.0
 24
10.0
 15
10.0
 25
10.0
 16
0.0
 26
0.0
 36
1.0
 17
0.0
 27
0.0
 37
0.0
 42
50.0
 43
0.0
 44
0.0
 45
35.6007782101
 50
0.0
 51
0.0
 72
   100
 90
   557152
  1

281
     0
 71
     1
 74
     0
110
0.0
120
0.0
130
0.0
111
1.0
121
0.0
131
0.0
112
0.0
122
1.0
132
0.0
 79
     0
146
0.0
  0
ENDBLK
  5
25
330
23
100
AcDbEntity
  8
0
100
AcDbBlockEnd
  0
ENDSEC
  0
SECTION
  2
ENTITIES
  0
LWPOLYLINE
  5
71
330
1F
100
AcDbEntity
  8
0
  6
Continuous
 62
     7
370
    15
100
AcDbPolyline
 90
      131
 70
   128
 43
0.0
 10
-8.9838862369
 20
-4.4827118775
 10
-8.1508574495
 20
-4.6960203093
 10
-7.2987919568
 20
-4.8883511984
 10
-6.4296797973
 20
-5.059255347
 10
-5.5455508227
 20
-5.2083336006
 10
-4.6484699572
 20
-5.3352377801
 10
-3.7405323747
 20
-5.4396714947
 10
-2.8238586056
 20
-5.5213908347
 10
-1.9005895838
 20
-5.5802049409
 10
-0.972881647
 20
-5.6159764502
 10
-0.0429015001
 20
-5.6286218165
 10
0.8871788453
 20
-5.618111506
 10
1.8151871434
 20
-5.584470066
 10
2.7389559879
 20
-5.5277760677
 10
3.6563278737
 20
-5.4481619225
 10
4.5651602363
 20
-5.3458135729
 10
5.4633304557
 20
-5.2209700583
 10
6.3487408136
 20
-5.0739229565
 10
7.2193233932
 20
-4.9050157028
 10
8.0730449086
 20
-4.7146427879
 10
8.9079114534
 20
-4.5032488365
 10
9.7219731583
 20
-4.2713275691
 10
10.5133287445
 20
-4.0194206485
 10
11.2801299642
 20
-3.7481164151
 10
12.0205859177
 20
-3.4580485123
 10
12.7329672358
 20
-3.1498944072
 10
13.415610119
 20
-2.8243738081
 10
14.0669202231
 20
-2.4822469833
 10
14.6853763832
 20
-2.1243129859
 10
15.2695341663
 20
-1.7514077874
 10
15.8180292449
 20
-1.3644023251
 10
16.3295805832
 20
-0.9642004683
 10
16.8029934295
 20
-0.5517369068
 10
17.237162106
 20
-0.1279749684
 10
17.6310725917
 20
0.3060956311
 10
17.9838048905
 20
0.7494610999
 10
18.2945351796
 20
1.2010859372
 10
18.5625377342
 20
1.6599153525
 10
18.7871866217
 20
2.1248777283
 10
18.9679571644
 20
2.5948871234
 10
19.1044271643
 20
3.0688458091
 10
19.1962778893
 20
3.545646833
 10
19.2432948178
 20
4.0241766042
 10
19.2453681397
 20
4.5033174942
 10
19.2024930125
 20
4.9819504473
 10
19.1147695731
 20
5.458957594
 10
18.9824027037
 20
5.933224862
 10
18.8057015532
 20
6.4036445782
 10
18.5850788154
 20
6.8691180555
 10
18.3210497648
 20
7.328558159
 10
18.0142310536
 20
7.7808918451
 10
17.6653392711
 20
8.2250626676
 10
17.2751892702
 20
8.6600332448
 10
16.8446922644
 20
9.0847876828
 10
16.3748536992
 20
9.498333948
 10
15.8667709044
 20
9.8997061839
 10
15.3216305311
 20
10.287966967
 10
14.7407057797
 20
10.6622094963
 10
14.1253534269
 20
11.0215597111
 10
13.4770106567
 20
11.3651783322
 10
12.7971917036
 20
11.6922628224
 10
12.0874843164
 20
12.0020492608
 10
11.3495460494
 20
12.2938141267
 10
10.5851003918
 20
12.5668759899
 10
9.7959327418
 20
12.8205971016
 10
8.9838862369
 20
13.0543848845
 10
8.1508574495
 20
13.2676933164
 10
7.2987919568
 20
13.4600242054
 10
6.4296797973
 20
13.6309283541
 10
5.5455508227
 20
13.7800066077
 10
4.6484699572
 20
13.9069107871
 10
3.7405323747
 20
14.0113445017
 10
2.8238586056
 20
14.0930638418
 10
1.9005895838
 20
14.1518779479
 10
0.972881647
 20
14.1876494572
 10
0.0429015001
 20
14.2002948235
 10
-0.8871788453
 20
14.189784513
 10
-1.8151871434
 20
14.156143073
 10
-2.7389559879
 20
14.0994490747
 10
-3.6563278737
 20
14.0198349295
 10
-4.5651602363
 20
13.9174865799
 10
-5.4633304557
 20
13.7926430653
 10
-6.3487408136
 20
13.6455959635
 10
-7.2193233932
 20
13.4766887098
 10
-8.0730449086
 20
13.2863157949
 10
-8.9079114534
 20
13.0749218435
 10
-9.7219731583
 20
12.8430005762
 10
-10.5133287445
 20
12.5910936556
 10
-11.2801299642
 20
12.3197894221
 10
-12.0205859177
 20
12.0297215193
 10
-12.7329672358
 20
11.7215674142
 10
-13.415610119
 20
11.3960468151
 10
-14.0669202231
 20
11.0539199903
 10
-14.6853763832
 20
10.695985993
 10
-15.2695341663
 20
10.3230807945
 10
-15.8180292449
 20
9.9360753322
 10
-16.3295805832
 20
9.5358734753
 10
-16.8029934295
 20
9.1234099138
 10
-17.237162106
 20
8.6996479755
 10
-17.6310725917
 20
8.2655773759
 10
-17.9838048905
 20
7.8222119072
 10
-18.2945351796
 20
7.3705870698
 10
-18.5625377342
 20
6.9117576545
 10
-18.7871866217
 20
6.4467952788
 10
-18.9679571644
 20
5.9767858836
 10
-19.1044271643
 20
5.5028271979
 10
-19.1962778893
 20
5.026026174
 10
-19.2432948178
 20
4.5474964028
 10
-19.2453681397
 20
4.0683555128
 10
-19.2024930125
 20
3.5897225598
 10
-19.1147695731
 20
3.1127154131
 10
-18.9824027037
 20
2.638448145
 10
-18.8057015532
 20
2.1680284288
 10
-18.5850788154
 20
1.7025549515
 10
-18.3210497648
 20
1.243114848
 10
-18.0142310536
 20
0.7907811619
 10
-17.6653392711
 20
0.3466103394
 10
-17.2751892702
 20
-0.0883602378
 10
-16.8446922644
 20
-0.5131146758
 10
-16.3748536992
 20
-0.926660941
 10
-15.8667709044
 20
-1.3280331769
 10
-15.3216305311
 20
-1.71629396
 10
-14.7407057797
 20
-2.0905364893
 10
-14.1253534269
 20
-2.449886704
 10
-13.4770106567
 20
-2.7935053251
 10
-12.7971917036
 20
-3.1205898154
 10
-12.0874843164
 20
-3.4303762537
 10
-11.3495460494
 20
-3.7221411197
 10
-10.5851003918
 20
-3.9952029828
 10
-9.7959327418
 20
-4.2489240946
 10
-8.9838862369
 20
-4.4827118775
  0
LWPOLYLINE
  5
72
330
1F
100
AcDbEntity
  8
0
  6
Continuous
 62
     7
370
    15
100
AcDbPolyline
 90
      143
 70
   128
 43
0.0
 10
-10.7339939454
 20
-6.190870653
 10
-9.823710008
 20
-6.425156653
 10
-8.8941956969
 20
-6.6384753808
 10
-7.9472705801
 20
-6.8304092552
 10
-6.9847883079
 20
-7.0005825565
 10
-6.0086329846
 20
-7.1486621624
 10
-5.02071548
 20
-7.2743582002
 10
-4.0229696892
 20
-7.3774246141
 10
-3.0173487462
 20
-7.4576596466
 10
-2.0058212014
 20
-7.5149062339
 10
-0.9903671674
 20
-7.5490523131
 10
0.0270255569
 20
-7.5600310417
 10
1.0443653773
 20
-7.5478209283
 10
2.0596608035
 20
-7.5124458748
 10
3.070924347
 20
-7.4539751295
 10
4.0761764118
 20
-7.3725231516
 10
5.0734491699
 20
-7.2682493872
 10
6.0607904129
 20
-7.1413579571
 10
7.0362673742
 20
-6.9920972572
 10
7.9979705116
 20
-6.8207594723
 10
8.9440172461
 20
-6.6276800043
 10
9.8725556469
 20
-6.4132368152
 10
10.7817680564
 20
-6.1778496876
 10
11.6698746486
 20
-5.921979403
 10
12.5351369132
 20
-5.6461268394
 10
13.3758610586
 20
-5.3508319911
 10
14.1904013279
 20
-5.0366729117
 10
14.9771632201
 20
-4.7042645823
 10
15.7346066121
 20
-4.3542577079
 10
16.4612487727
 20
-3.9873374433
 10
17.1556672658
 20
-3.6042220522
 10
17.8165027346
 20
-3.205661501
 10
18.4424615626
 20
-2.7924359906
 10
19.0323184061
 20
-2.3653544294
 10
19.5849185926
 20
-1.9252528497
 10
20.0991803811
 20
-1.4729927708
 10
20.5740970803
 20
-1.0094595132
 10
21.0087390182
 20
-0.535560465
 10
21.4022553629
 20
-0.0522233058
 10
21.7538757877
 20
0.4396058091
 10
22.0629119791
 20
0.9389641013
 10
22.3287589842
 20
1.4448740534
 10
22.5508963951
 20
1.9563453229
 10
22.7288893672
 20
2.4723766808
 10
22.8623894711
 20
2.9919579714
 10
22.9511353739
 20
3.51407209
 10
22.9949533515
 20
4.0376969737
 10
22.9937576281
 20
4.5618076022
 10
22.9475505443
 20
5.0853780043
 10
22.8564225527
 20
5.6073832663
 10
22.7205520406
 20
6.1268015386
 10
22.5402049809
 20
6.6426160353
 10
22.3157344115
 20
7.1538170254
 10
22.0475797441
 20
7.6594038089
 10
21.7362659039
 20
8.158386676
 10
21.3824023025
 20
8.6497888443
 10
20.9866816444
 20
9.132648371
 10
20.5498785715
 20
9.6060200358
 10
20.0728481463
 20
10.0689771916
 10
19.5565241782
 20
10.5206135778
 10
19.0019173957
 20
10.9600450952
 10
18.4101134675
 20
11.3864115358
 10
17.7822708777
 20
11.7988782673
 10
17.1196186576
 20
12.1966378668
 10
16.42345398
 20
12.5789117011
 10
15.69513962
 20
12.9449514513
 10
14.9361012871
 20
13.2940405773
 10
14.1478248346
 20
13.6254957208
 10
13.3318533506
 20
13.9386680428
 10
12.4897841376
 20
14.2329444938
 10
11.6232655856
 20
14.5077490138
 10
10.7339939454
 20
14.76254366
 10
9.823710008
 20
14.99682966
 10
8.8941956969
 20
15.2101483879
 10
7.9472705801
 20
15.4020822622
 10
6.9847883079
 20
15.5722555635
 10
6.0086329846
 20
15.7203351694
 10
5.02071548
 20
15.8460312073
 10
4.0229696892
 20
15.9490976211
 10
3.0173487462
 20
16.0293326536
 10
2.0058212014
 20
16.0865792409
 10
0.9903671674
 20
16.1207253201
 10
-0.0270255569
 20
16.1317040487
 10
-1.0443653773
 20
16.1194939354
 10
-2.0596608035
 20
16.0841188818
 10
-3.070924347
 20
16.0256481365
 10
-4.0761764118
 20
15.9441961586
 10
-5.0734491699
 20
15.8399223942
 10
-6.0607904129
 20
15.7130309641
 10
-7.0362673742
 20
15.5637702642
 10
-7.9979705116
 20
15.3924324793
 10
-8.9440172461
 20
15.1993530113
 10
-9.8725556469
 20
14.9849098222
 10
-10.7817680564
 20
14.7495226947
 10
-11.6698746486
 20
14.49365241
 10
-12.5351369132
 20
14.2177998464
 10
-13.3758610586
 20
13.9225049981
 10
-14.1904013279
 20
13.6083459187
 10
-14.9771632201
 20
13.2759375893
 10
-15.7346066121
 20
12.9259307149
 10
-16.4612487727
 20
12.5590104503
 10
-17.1556672658
 20
12.1758950592
 10
-17.8165027346
 20
11.777334508
 10
-18.4424615626
 20
11.3641089976
 10
-19.0323184061
 20
10.9370274365
 10
-19.5849185926
 20
10.4969258567
 10
-20.0991803811
 20
10.0446657778
 10
-20.5740970803
 20
9.5811325203
 10
-21.0087390182
 20
9.1072334721
 10
-21.4022553629
 20
8.6238963129
 10
-21.7538757877
 20
8.1320671979
 10
-22.0629119791
 20
7.6327089057
 10
-22.3287589842
 20
7.1267989536
 10
-22.5508963951
 20
6.6153276841
 10
-22.7288893672
 20
6.0992963263
 10
-22.8623894711
 20
5.5797150356
 10
-22.9511353739
 20
5.057600917
 10
-22.9949533515
 20
4.5339760333
 10
-22.9937576281
 20
4.0098654048
 10
-22.9475505443
 20
3.4862950027
 10
-22.8564225527
 20
2.9642897407
 10
-22.7205520406
 20
2.4448714685
 10
-22.5402049809
 20
1.9290569718
 10
-22.3157344115
 20
1.4178559817
 10
-22.0475797441
 20
0.9122691981
 10
-21.7362659039
 20
0.413286331
 10
-21.3824023025
 20
-0.0781158373
 10
-20.9866816444
 20
-0.560975364
 10
-20.5498785715
 20
-1.0343470288
 10
-20.0728481463
 20
-1.4973041845
 10
-19.5565241782
 20
-1.9489405708
 10
-19.0019173957
 20
-2.3883720881
 10
-18.4101134675
 20
-2.8147385287
 10
-17.7822708777
 20
-3.2272052603
 10
-17.1196186576
 20
-3.6249648598
 10
-16.42345398
 20
-4.0072386941
 10
-15.69513962
 20
-4.3732784442
 10
-14.9361012871
 20
-4.7223675703
 10
-14.1478248346
 20
-5.0538227138
 10
-13.3318533506
 20
-5.3669950358
 10
-12.4897841376
 20
-5.6612714868
 10
-11.6232655856
 20
-5.9360760068
 10
-10.7339939454
 20
-6.190870653
  0
LWPOLYLINE
  5
73
330
1F
100
AcDbEntity
  8
0
  6
Continuous
 62
     7
370
    15
100
AcDbPolyline
 90
       48
 70
   128
 43
0.0
 10
-10.7339939454
 20
-10.4767071565
 10
-9.823710008
 20
-10.7109931565
 10
-8.8941956969
 20
-10.9243118843
 10
-7.9472705801
 20
-11.1162457587
 10
-6.9847883079
 20
-11.28641906
 10
-6.0086329846
 20
-11.4344986659
 10
-5.02071548
 20
-11.5601947037
 10
-4.0229696892
 20
-11.6632611176
 10
-3.0173487462
 20
-11.7434961501
 10
-2.0058212014
 20
-11.8007427374
 10
-0.9903671674
 20
-11.8348888166
 10
0.0270255569
 20
-11.8458675452
 10
1.0443653773
 20
-11.8336574318
 10
2.0596608035
 20
-11.7982823783
 10
3.070924347
 20
-11.739811633
 10
4.0761764118
 20
-11.6583596551
 10
5.0734491699
 20
-11.5540858907
 10
6.0607904129
 20
-11.4271944606
 10
7.0362673742
 20
-11.2779337607
 10
7.9979705116
 20
-11.1065959758
 10
8.9440172461
 20
-10.9135165078
 10
9.8725556469
 20
-10.6990733187
 10
10.7817680564
 20
-10.4636861912
 10
11.6698746486
 20
-10.2078159065
 10
12.5351369132
 20
-9.9319633429
 10
13.3758610586
 20
-9.6366684946
 10
14.1904013279
 20
-9.3225094152
 10
14.9771632201
 20
-8.9901010858
 10
15.7346066121
 20
-8.6400942114
 10
16.4612487727
 20
-8.2731739468
 10
17.1556672658
 20
-7.8900585557
 10
17.8165027346
 20
-7.4914980045
 10
18.4424615626
 20
-7.0782724941
 10
19.0323184061
 20
-6.651190933
 10
19.5849185926
 20
-6.2110893532
 10
20.0991803811
 20
-5.7588292743
 10
20.5740970803
 20
-5.2952960168
 10
21.0087390182
 20
-4.8213969685
 10
21.4022553629
 20
-4.3380598094
 10
21.7538757877
 20
-3.8462306944
 10
22.0629119791
 20
-3.3468724022
 10
22.3287589842
 20
-2.8409624501
 10
22.5508963951
 20
-2.3294911806
 10
22.7288893672
 20
-1.8134598228
 10
22.8623894711
 20
-1.2938785321
 10
22.9511353739
 20
-0.7717644135
 10
22.9949533515
 20
-0.2481395298
 10
23.0
 20
0.0
  0
LWPOLYLINE
  5
74
330
1F
100
AcDbEntity
  8
0
  6
Continuous
 62
     7
370
    15
100
AcDbPolyline
 90
       26
 70
   128
 43
0.0
 10
-23.0
 20
0.0
 10
-22.9937576281
 20
-0.2759710987
 10
-22.9475505443
 20
-0.7995415008
 10
-22.8564225527
 20
-1.3215467628
 10
-22.7205520406
 20
-1.840965035
 10
-22.5402049809
 20
-2.3567795318
 10
-22.3157344115
 20
-2.8679805219
 10
-22.0475797441
 20
-3.3735673054
 10
-21.7362659039
 20
-3.8725501725
 10
-21.3824023025
 20
-4.3639523408
 10
-20.9866816444
 20
-4.8468118675
 10
-20.5498785715
 20
-5.3201835323
 10
-20.0728481463
 20
-5.7831406881
 10
-19.5565241782
 20
-6.2347770743
 10
-19.0019173957
 20
-6.6742085917
 10
-18.4101134675
 20
-7.1005750323
 10
-17.7822708777
 20
-7.5130417638
 10
-17.1196186576
 20
-7.9108013633
 10
-16.42345398
 20
-8.2930751976
 10
-15.69513962
 20
-8.6591149478
 10
-14.9361012871
 20
-9.0082040738
 10
-14.1478248346
 20
-9.3396592173
 10
-13.3318533506
 20
-9.6528315393
 10
-12.4897841376
 20
-9.9471079903
 10
-11.6232655856
 20
-10.2219125103
 10
-10.7339939454
 20
-10.4767071565
  0
LWPOLYLINE
  5
75
330
1F
100
AcDbEntity
  8
0
  6
Continuous
 62
     7
370
    15
100
AcDbPolyline
 90
       58
 70
   128
 43
0.0
 10
18.7949750274
 20
2.1429182518
 10
18.5850788154
 20
2.583281552
 10
18.3210497648
 20
3.0427216555
 10
18.0142310536
 20
3.4950553416
 10
17.6653392711
 20
3.9392261641
 10
17.2751892702
 20
4.3741967413
 10
16.8446922644
 20
4.7989511793
 10
16.3748536992
 20
5.2124974445
 10
15.8667709044
 20
5.6138696804
 10
15.3216305311
 20
6.0021304635
 10
14.7407057797
 20
6.3763729928
 10
14.1253534269
 20
6.7357232076
 10
13.4770106567
 20
7.0793418286
 10
12.7971917036
 20
7.4064263189
 10
12.0874843164
 20
7.7162127572
 10
11.3495460494
 20
8.0079776232
 10
10.5851003918
 20
8.2810394864
 10
9.7959327418
 20
8.5347605981
 10
8.9838862369
 20
8.768548381
 10
8.1508574495
 20
8.9818568128
 10
7.2987919568
 20
9.1741877019
 10
6.4296797973
 20
9.3450918506
 10
5.5455508227
 20
9.4941701042
 10
4.6484699572
 20
9.6210742836
 10
3.7405323747
 20
9.7255079982
 10
2.8238586056
 20
9.8072273382
 10
1.9005895838
 20
9.8660414444
 10
0.972881647
 20
9.9018129537
 10
0.0429015001
 20
9.91445832
 10
-0.8871788453
 20
9.9039480095
 10
-1.8151871434
 20
9.8703065695
 10
-2.7389559879
 20
9.8136125712
 10
-3.6563278737
 20
9.733998426
 10
-4.5651602363
 20
9.6316500764
 10
-5.4633304557
 20
9.5068065618
 10
-6.3487408136
 20
9.35975946
 10
-7.2193233932
 20
9.1908522063
 10
-8.0730449086
 20
9.0004792914
 10
-8.9079114534
 20
8.78908534
 10
-9.7219731583
 20
8.5571640726
 10
-10.5133287445
 20
8.3052571521
 10
-11.2801299642
 20
8.0339529186
 10
-12.0205859177
 20
7.7438850158
 10
-12.7329672358
 20
7.4357309107
 10
-13.415610119
 20
7.1102103116
 10
-14.0669202231
 20
6.7680834868
 10
-14.6853763832
 20
6.4101494894
 10
-15.2695341663
 20
6.0372442909
 10
-15.8180292449
 20
5.6502388287
 10
-16.3295805832
 20
5.2500369718
 10
-16.8029934295
 20
4.8375734103
 10
-17.237162106
 20
4.413811472
 10
-17.6310725917
 20
3.9797408724
 10
-17.9838048905
 20
3.5363754037
 10
-18.2945351796
 20
3.0847505663
 10
-18.5625377342
 20
2.625921151
 10
-18.7871866217
 20
2.1609587753
 10
-18.7949750274
 20
2.1429182518
  0
LINE
  5
76
330
1F
100
AcDbEntity
  8
0
  6
Continuous
 62
     7
370
    15
100
AcDbLine
 10
23.0
 20
0.0
 30
0.0
 11
23.0
 21
4.2858365035
 31
0.0
  0
LINE
  5
77
330
1F
100
AcDbEntity
  8
0
  6
Continuous
 62
     7
370
    15
100
AcDbLine
 10
-23.0
 20
4.2858365035
 30
0.0
 11
-23.0
 21
0.0
 31
0.0
  0
CIRCLE
  5
78
330
1B
100
AcDbEntity
 67
     1
  8
0
  6
Continuous
 62
     7
370
    15
100
AcDbCircle
 10
0.0
 20
0.0
 30
0.0
 40
19.25
  0
CIRCLE
  5
79
330
1B
100
AcDbEntity
 67
     1
  8
0
  6
Continuous
 62
     7
370
    15
100
AcDbCircle
 10
0.0
 20
0.0
 30
0.0
 40
22.99999999999997
  0
VIEWPORT
  5
84
330
1B
100
AcDbEntity
 67
     1
  8
0
100
AcDbViewport
 10
0.0
 20
0.0
 30
0.0
 40
205.6
 41
156.0
 68
     1
 69
     1
 12
0.0
 22
2.1429182518
 13
0.0
 23
0.0
 14
10.0
 24
10.0
 15
10.0
 25
10.0
 16
0.0
 26
0.0
 36
1.0
 17
0.0
 27
0.0
 37
0.0
 42
50.0
 43
0.0
 44
0.0
 45
35.6007782101
 50
0.0
 51
0.0
 72
   100
 90
   557152
  1

281
     0
 71
     1
 74
     0
110
0.0
120
0.0
130
0.0
111
1.0
121
0.0
131
0.0
112
0.0
122
1.0
132
0.0
 79
     0
146
0.0
  0
ENDSEC
  0
SECTION
  2
OBJECTS
  0
DICTIONARY
  5
C
330
0
100
AcDbDictionary
281
     1
  3
ACAD_GROUP
350
D
  3
ACAD_LAYOUT
350
1A
  3
ACAD_MLINESTYLE
350
17
  3
ACAD_PLOTSETTINGS
350
19
  3
ACAD_PLOTSTYLENAME
350
E
  3
ACAD_SCALELIST
350
47
  0
DICTIONARY
  5
D
102
{ACAD_REACTORS
330
C
102
}
330
C
100
AcDbDictionary
281
     1
  0
DICTIONARY
  5
1A
102
{ACAD_REACTORS
330
C
102
}
330
C
100
AcDbDictionary
281
     1
  3
_Dessus
350
1E
  3
_Face
350
26
  3
Model
350
22
  0
DICTIONARY
  5
17
102
{ACAD_REACTORS
330
C
102
}
330
C
100
AcDbDictionary
281
     1
  3
Standard
350
18
  0
DICTIONARY
  5
19
102
{ACAD_REACTORS
330
C
102
}
330
C
100
AcDbDictionary
281
     1
  0
ACDBDICTIONARYWDFLT
  5
E
102
{ACAD_REACTORS
330
C
102
}
330
C
100
AcDbDictionary
281
     1
  3
Normal
350
F
100
AcDbDictionaryWithDefault
340
F
  0
DICTIONARY
  5
47
102
{ACAD_REACTORS
330
C
102
}
330
C
100
AcDbDictionary
281
     1
  3
A0
350
48
  3
A1
350
49
  3
A2
350
4A
  3
A3
350
4B
  3
A4
350
4C
  3
A5
350
4D
  3
A6
350
4E
  3
A7
350
4F
  3
A8
350
50
  3
A9
350
51
  3
B0
350
52
  3
B1
350
53
  3
B2
350
54
  3
B3
350
55
  3
B4
350
56
  3
B5
350
57
  3
B6
350
58
  3
B7
350
59
  3
B8
350
5A
  3
B9
350
5B
  3
C0
350
5C
  3
C1
350
5D
  3
C2
350
5E
  3
C3
350
5F
  3
C4
350
60
  3
C5
350
61
  3
C6
350
62
  3
C7
350
63
  3
C8
350
64
  3
C9
350
65
  3
D0
350
66
  3
D1
350
67
  3
D2
350
68
  0
LAYOUT
  5
1E
102
{ACAD_REACTORS
330
1A
102
}
330
1A
100
AcDbPlotSettings
  1

  2
none_device
  4
ISO_A4_(210.00_x_297.00_MM)
  6

 40
7.5
 41
20.0
 42
7.5
 43
20.0
 44
210.0
 45
297.0
 46
0.0
 47
0.0
 48
0.0
 49
0.0
140
0.0
141
0.0
142
1.0
143
0.2358974359
 70
   688
 72
     1
 73
     1
 74
     1
  7

 75
     0
147
4.2391304348
148
23.0
149
23.0
100
AcDbLayout
  1
_Dessus
 70
     1
 71
     1
 10
-27.7179487179
 20
-24.7692307692
 11
42.3435897436
 21
24.7692307692
 12
0.0
 22
0.0
 32
0.0
 14
-23.0
 24
-23.0
 34
0.0
 15
23.0
 25
23.0
 35
0.0
146
0.0
 13
0.0
 23
0.0
 33
0.0
 16
1.0
 26
0.0
 36
0.0
 17
0.0
 27
1.0
 37
0.0
 76
     0
330
1B
331
84
  0
LAYOUT
  5
26
102
{ACAD_REACTORS
330
1A
102
}
330
1A
100
AcDbPlotSettings
  1

  2
none_device
  4
ISO_A4_(210.00_x_297.00_MM)
  6

 40
7.5
 41
20.0
 42
7.5
 43
20.0
 44
210.0
 45
297.0
 46
0.0
 47
0.0
 48
0.0
 49
0.0
140
0.0
141
0.0
142
1.0
143
0.2358974359
 70
   688
 72
     1
 73
     1
 74
     1
  7

 75
     0
147
4.2391304348
148
23.0
149
23.0
100
AcDbLayout
  1
_Face
 70
     1
 71
     2
 10
0.0
 20
0.0
 11
0.0
 21
0.0
 12
0.0
 22
0.0
 32
0.0
 14
0.0
 24
0.0
 34
0.0
 15
0.0
 25
0.0
 35
0.0
146
0.0
 13
0.0
 23
0.0
 33
0.0
 16
1.0
 26
0.0
 36
0.0
 17
0.0
 27
1.0
 37
0.0
 76
     0
330
23
331
86
  0
LAYOUT
  5
22
102
{ACAD_REACTORS
330
1A
102
}
330
1A
100
AcDbPlotSettings
  1

  2
none_device
  4
ANSI_A_(11.00_x_8.50_Inches)
  6

 40
6.35
 41
19.05
 42
6.35000508
 43
19.05000254
 44
279.4
 45
215.9
 46
133.34999746
 47
76.0142586008
 48
0.0
 49
0.0
140
0.0
141
0.0
142
0.2367391304
143
1.0
 70
  1696
 72
     0
 73
     0
 74
     0
  7

 75
     0
147
0.0179189148
148
-1300.4909072572
149
0.0
100
AcDbLayout
  1
Model
 70
     1
 71
     0
 10
0.0
 20
0.0
 11
420.0
 21
297.0
 12
0.0
 22
0.0
 32
0.0
 14
-23.0
 24
-11.8458675452
 34
0.0
 15
23.0
 25
16.1317040487
 35
0.0
146
0.0
 13
0.0
 23
0.0
 33
0.0
 16
1.0
 26
0.0
 36
0.0
 17
0.0
 27
1.0
 37
0.0
 76
     0
330
1F
331
29
  0
MLINESTYLE
  5
18
102
{ACAD_REACTORS
330
17
102
}
330
17
100
AcDbMlineStyle
  2
Standard
 70
     0
  3

 62
   256
 51
90.0
 52
90.0
 71
     2
 49
0.5
 62
   256
  6
BYLAYER
 49
-0.5
 62
   256
  6
BYLAYER
  0
ACDBPLACEHOLDER
  5
F
102
{ACAD_REACTORS
330
E
102
}
330
E
  0
SCALE
  5
48
102
{ACAD_REACTORS
330
47
102
}
330
47
100
AcDbScale
 70
     0
300
1:1
140
1.0
141
1.0
290
     1
  0
SCALE
  5
49
102
{ACAD_REACTORS
330
47
102
}
330
47
100
AcDbScale
 70
     0
300
1:2
140
1.0
141
2.0
290
     0
  0
SCALE
  5
4A
102
{ACAD_REACTORS
330
47
102
}
330
47
100
AcDbScale
 70
     0
300
1:4
140
1.0
141
4.0
290
     0
  0
SCALE
  5
4B
102
{ACAD_REACTORS
330
47
102
}
330
47
100
AcDbScale
 70
     0
300
1:5
140
1.0
141
5.0
290
     0
  0
SCALE
  5
4C
102
{ACAD_REACTORS
330
47
102
}
330
47
100
AcDbScale
 70
     0
300
1:8
140
1.0
141
8.0
290
     0
  0
SCALE
  5
4D
102
{ACAD_REACTORS
330
47
102
}
330
47
100
AcDbScale
 70
     0
300
1:10
140
1.0
141
10.0
290
     0
  0
SCALE
  5
4E
102
{ACAD_REACTORS
330
47
102
}
330
47
100
AcDbScale
 70
     0
300
1:16
140
1.0
141
16.0
290
     0
  0
SCALE
  5
4F
102
{ACAD_REACTORS
330
47
102
}
330
47
100
AcDbScale
 70
     0
300
1:20
140
1.0
141
20.0
290
     0
  0
SCALE
  5
50
102
{ACAD_REACTORS
330
47
102
}
330
47
100
AcDbScale
 70
     0
300
1:30
140
1.0
141
30.0
290
     0
  0
SCALE
  5
51
102
{ACAD_REACTORS
330
47
102
}
330
47
100
AcDbScale
 70
     0
300
1:40
140
1.0
141
40.0
290
     0
  0
SCALE
  5
52
102
{ACAD_REACTORS
330
47
102
}
330
47
100
AcDbScale
 70
     0
300
1:50
140
1.0
141
50.0
290
     0
  0
SCALE
  5
53
102
{ACAD_REACTORS
330
47
102
}
330
47
100
AcDbScale
 70
     0
300
1:100
140
1.0
141
100.0
290
     0
  0
SCALE
  5
54
102
{ACAD_REACTORS
330
47
102
}
330
47
100
AcDbScale
 70
     0
300
2:1
140
2.0
141
1.0
290
     0
  0
SCALE
  5
55
102
{ACAD_REACTORS
330
47
102
}
330
47
100
AcDbScale
 70
     0
300
4:1
140
4.0
141
1.0
290
     0
  0
SCALE
  5
56
102
{ACAD_REACTORS
330
47
102
}
330
47
100
AcDbScale
 70
     0
300
8:1
140
8.0
141
1.0
290
     0
  0
SCALE
  5
57
102
{ACAD_REACTORS
330
47
102
}
330
47
100
AcDbScale
 70
     0
300
10:1
140
10.0
141
1.0
290
     0
  0
SCALE
  5
58
102
{ACAD_REACTORS
330
47
102
}
330
47
100
AcDbScale
 70
     0
300
100:1
140
100.0
141
1.0
290
     0
  0
SCALE
  5
59
102
{ACAD_REACTORS
330
47
102
}
330
47
100
AcDbScale
 70
     0
300
1/128" = 1'-0"
140
0.0078125
141
12.0
290
     0
  0
SCALE
  5
5A
102
{ACAD_REACTORS
330
47
102
}
330
47
100
AcDbScale
 70
     0
300
1/64" = 1'-0"
140
0.015625
141
12.0
290
     0
  0
SCALE
  5
5B
102
{ACAD_REACTORS
330
47
102
}
330
47
100
AcDbScale
 70
     0
300
1/32" = 1'-0"
140
0.03125
141
12.0
290
     0
  0
SCALE
  5
5C
102
{ACAD_REACTORS
330
47
102
}
330
47
100
AcDbScale
 70
     0
300
1/16" = 1'-0"
140
0.0625
141
12.0
290
     0
  0
SCALE
  5
5D
102
{ACAD_REACTORS
330
47
102
}
330
47
100
AcDbScale
 70
     0
300
3/32" = 1'-0"
140
0.09375
141
12.0
290
     0
  0
SCALE
  5
5E
102
{ACAD_REACTORS
330
47
102
}
330
47
100
AcDbScale
 70
     0
300
1/8" = 1'-0"
140
0.125
141
12.0
290
     0
  0
SCALE
  5
5F
102
{ACAD_REACTORS
330
47
102
}
330
47
100
AcDbScale
 70
     0
300
3/16" = 1'-0"
140
0.1875
141
12.0
290
     0
  0
SCALE
  5
60
102
{ACAD_REACTORS
330
47
102
}
330
47
100
AcDbScale
 70
     0
300
1/4" = 1'-0"
140
0.25
141
12.0
290
     0
  0
SCALE
  5
61
102
{ACAD_REACTORS
330
47
102
}
330
47
100
AcDbScale
 70
     0
300
3/8" = 1'-0"
140
0.375
141
12.0
290
     0
  0
SCALE
  5
62
102
{ACAD_REACTORS
330
47
102
}
330
47
100
AcDbScale
 70
     0
300
1/2" = 1'-0"
140
0.5
141
12.0
290
     0
  0
SCALE
  5
63
102
{ACAD_REACTORS
330
47
102
}
330
47
100
AcDbScale
 70
     0
300
3/4" = 1'-0"
140
0.75
141
12.0
290
     0
  0
SCALE
  5
64
102
{ACAD_REACTORS
330
47
102
}
330
47
100
AcDbScale
 70
     0
300
1" = 1'-0"
140
1.0
141
12.0
290
     0
  0
SCALE
  5
65
102
{ACAD_REACTORS
330
47
102
}
330
47
100
AcDbScale
 70
     0
300
1-1/2" = 1'-0"
140
1.5
141
12.0
290
     0
  0
SCALE
  5
66
102
{ACAD_REACTORS
330
47
102
}
330
47
100
AcDbScale
 70
     0
300
3" = 1'-0"
140
3.0
141
12.0
290
     0
  0
SCALE
  5
67
102
{ACAD_REACTORS
330
47
102
}
330
47
100
AcDbScale
 70
     0
300
6" = 1'-0"
140
6.0
141
12.0
290
     0
  0
SCALE
  5
68
102
{ACAD_REACTORS
330
47
102
}
330
47
100
AcDbScale
 70
     0
300
1'-0" = 1'-0"
140
12.0
141
12.0
290
     0
  0
ENDSEC
  0
EOF
